ISO-10303-21;
HEADER;
/* Generated by software containing ST-Developer
 * from STEP Tools, Inc. (www.steptools.com) 
 */

FILE_DESCRIPTION(
/* description */ (''),
/* implementation_level */ '2;1');

FILE_NAME(
/* name */ 'SAHN50C.dxf',
/* time_stamp */ '2012-11-23T16:50:50+08:00',
/* author */ (''),
/* organization */ (''),
/* preprocessor_version */ 'ST-DEVELOPER v9',
/* originating_system */ 'UGS - NX 4.0',
/* authorisation */ '');

FILE_SCHEMA (('CONFIG_CONTROL_DESIGN'));
ENDSEC;

DATA;
#10=SHAPE_REPRESENTATION_RELATIONSHIP('None',
'relationship between Admi6DDAxn8j-None and Admi6DDAxn8j-None',#94,#11);
#11=ADVANCED_BREP_SHAPE_REPRESENTATION('Admi6DDAxn8j-None',(#95),#331);
#12=CC_DESIGN_APPROVAL(#24,(#82));
#13=CC_DESIGN_APPROVAL(#25,(#84));
#14=CC_DESIGN_APPROVAL(#26,(#31));
#15=APPROVAL_PERSON_ORGANIZATION(#69,#24,#18);
#16=APPROVAL_PERSON_ORGANIZATION(#70,#25,#19);
#17=APPROVAL_PERSON_ORGANIZATION(#71,#26,#20);
#18=APPROVAL_ROLE('approver');
#19=APPROVAL_ROLE('approver');
#20=APPROVAL_ROLE('approver');
#21=APPROVAL_DATE_TIME(#39,#24);
#22=APPROVAL_DATE_TIME(#40,#25);
#23=APPROVAL_DATE_TIME(#41,#26);
#24=APPROVAL(#27,' ');
#25=APPROVAL(#28,' ');
#26=APPROVAL(#29,' ');
#27=APPROVAL_STATUS('not_yet_approved');
#28=APPROVAL_STATUS('not_yet_approved');
#29=APPROVAL_STATUS('not_yet_approved');
#30=CC_DESIGN_SECURITY_CLASSIFICATION(#31,(#84));
#31=SECURITY_CLASSIFICATION(' ',' ',#32);
#32=SECURITY_CLASSIFICATION_LEVEL('confidential');
#33=CC_DESIGN_DATE_AND_TIME_ASSIGNMENT(#37,#35,(#82));
#34=CC_DESIGN_DATE_AND_TIME_ASSIGNMENT(#38,#36,(#31));
#35=DATE_TIME_ROLE('creation_date');
#36=DATE_TIME_ROLE('classification_date');
#37=DATE_AND_TIME(#52,#42);
#38=DATE_AND_TIME(#53,#43);
#39=DATE_AND_TIME(#54,#44);
#40=DATE_AND_TIME(#55,#45);
#41=DATE_AND_TIME(#56,#46);
#42=LOCAL_TIME(0,0,0.,#47);
#43=LOCAL_TIME(0,0,0.,#48);
#44=LOCAL_TIME(0,0,0.,#49);
#45=LOCAL_TIME(0,0,0.,#50);
#46=LOCAL_TIME(0,0,0.,#51);
#47=COORDINATED_UNIVERSAL_TIME_OFFSET(0,0,.BEHIND.);
#48=COORDINATED_UNIVERSAL_TIME_OFFSET(0,0,.BEHIND.);
#49=COORDINATED_UNIVERSAL_TIME_OFFSET(0,0,.BEHIND.);
#50=COORDINATED_UNIVERSAL_TIME_OFFSET(0,0,.BEHIND.);
#51=COORDINATED_UNIVERSAL_TIME_OFFSET(0,0,.BEHIND.);
#52=CALENDAR_DATE(0,1,1);
#53=CALENDAR_DATE(0,1,1);
#54=CALENDAR_DATE(0,1,1);
#55=CALENDAR_DATE(0,1,1);
#56=CALENDAR_DATE(0,1,1);
#57=CC_DESIGN_PERSON_AND_ORGANIZATION_ASSIGNMENT(#65,#61,(#82,#84));
#58=CC_DESIGN_PERSON_AND_ORGANIZATION_ASSIGNMENT(#66,#62,(#86));
#59=CC_DESIGN_PERSON_AND_ORGANIZATION_ASSIGNMENT(#67,#63,(#84));
#60=CC_DESIGN_PERSON_AND_ORGANIZATION_ASSIGNMENT(#68,#64,(#31));
#61=PERSON_AND_ORGANIZATION_ROLE('creator');
#62=PERSON_AND_ORGANIZATION_ROLE('design_owner');
#63=PERSON_AND_ORGANIZATION_ROLE('design_supplier');
#64=PERSON_AND_ORGANIZATION_ROLE('classification_officer');
#65=PERSON_AND_ORGANIZATION(#79,#72);
#66=PERSON_AND_ORGANIZATION(#79,#73);
#67=PERSON_AND_ORGANIZATION(#79,#74);
#68=PERSON_AND_ORGANIZATION(#79,#75);
#69=PERSON_AND_ORGANIZATION(#79,#76);
#70=PERSON_AND_ORGANIZATION(#79,#77);
#71=PERSON_AND_ORGANIZATION(#79,#78);
#72=ORGANIZATION(' ',' ',' ');
#73=ORGANIZATION(' ',' ',' ');
#74=ORGANIZATION(' ',' ',' ');
#75=ORGANIZATION(' ',' ',' ');
#76=ORGANIZATION(' ',' ',' ');
#77=ORGANIZATION(' ',' ',' ');
#78=ORGANIZATION(' ',' ',' ');
#79=PERSON(' ',' ',' ',(' '),$,$);
#80=SHAPE_DEFINITION_REPRESENTATION(#81,#94);
#81=PRODUCT_DEFINITION_SHAPE('','',#82);
#82=PRODUCT_DEFINITION(' ','',#84,#83);
#83=DESIGN_CONTEXT('',#93,'design');
#84=PRODUCT_DEFINITION_FORMATION_WITH_SPECIFIED_SOURCE(' ',' ',#86,.NOT_KNOWN.);
#85=PRODUCT_RELATED_PRODUCT_CATEGORY('detail','',(#86));
#86=PRODUCT('Admi6DDAxn8j','Admi6DDAxn8j',' ',(#91));
#87=PRODUCT_CATEGORY_RELATIONSHIP(' ',' ',#89,#90);
#88=PRODUCT_CATEGORY_RELATIONSHIP('','',#90,#85);
#89=PRODUCT_CATEGORY('part',' ');
#90=PRODUCT_CATEGORY(' ','');
#91=MECHANICAL_CONTEXT(' ',#93,'mechanical');
#92=APPLICATION_PROTOCOL_DEFINITION('international standard',
'config_control_design',1994,#93);
#93=APPLICATION_CONTEXT(
'configuration controlled 3D designs of mechanical parts and assemblies
');
#94=SHAPE_REPRESENTATION('Admi6DDAxn8j-None',(#223),#331);
#95=MANIFOLD_SOLID_BREP('',#96);
#96=CLOSED_SHELL('',(#107,#108,#109,#110,#111,#112,#113,#114,#115,#116,#117,
#118));
#97=TOROIDAL_SURFACE('',#233,8.99999999999999,2.);
#98=TOROIDAL_SURFACE('',#237,14.,3.);
#99=TOROIDAL_SURFACE('',#241,24.,1.);
#100=TOROIDAL_SURFACE('',#245,24.,1.);
#101=PLANE('',#231);
#102=PLANE('',#239);
#103=PLANE('',#246);
#104=CYLINDRICAL_SURFACE('',#227,2.49999999999999);
#105=CYLINDRICAL_SURFACE('',#235,11.);
#106=CYLINDRICAL_SURFACE('',#243,25.);
#107=ADVANCED_FACE('',(#192,#121),#119,.F.);
#108=ADVANCED_FACE('',(#193,#194),#104,.F.);
#109=ADVANCED_FACE('',(#195,#122),#120,.F.);
#110=ADVANCED_FACE('',(#196,#123),#101,.F.);
#111=ADVANCED_FACE('',(#197,#198),#97,.T.);
#112=ADVANCED_FACE('',(#199,#200),#105,.T.);
#113=ADVANCED_FACE('',(#201,#202),#98,.F.);
#114=ADVANCED_FACE('',(#203,#124),#102,.F.);
#115=ADVANCED_FACE('',(#204,#205),#99,.T.);
#116=ADVANCED_FACE('',(#206,#207),#106,.T.);
#117=ADVANCED_FACE('',(#208,#209),#100,.T.);
#118=ADVANCED_FACE('',(#125),#103,.F.);
#119=CONICAL_SURFACE('',#225,2.49999999999999,59.9999943788366);
#120=CONICAL_SURFACE('',#229,2.99999999999999,44.9999999999936);
#121=FACE_OUTER_BOUND('',#126,.T.);
#122=FACE_OUTER_BOUND('',#130,.T.);
#123=FACE_OUTER_BOUND('',#132,.T.);
#124=FACE_OUTER_BOUND('',#140,.T.);
#125=FACE_OUTER_BOUND('',#147,.T.);
#126=EDGE_LOOP('',(#148));
#127=EDGE_LOOP('',(#149));
#128=EDGE_LOOP('',(#150));
#129=EDGE_LOOP('',(#151));
#130=EDGE_LOOP('',(#152));
#131=EDGE_LOOP('',(#153));
#132=EDGE_LOOP('',(#154));
#133=EDGE_LOOP('',(#155));
#134=EDGE_LOOP('',(#156));
#135=EDGE_LOOP('',(#157));
#136=EDGE_LOOP('',(#158));
#137=EDGE_LOOP('',(#159));
#138=EDGE_LOOP('',(#160));
#139=EDGE_LOOP('',(#161));
#140=EDGE_LOOP('',(#162));
#141=EDGE_LOOP('',(#163));
#142=EDGE_LOOP('',(#164));
#143=EDGE_LOOP('',(#165));
#144=EDGE_LOOP('',(#166));
#145=EDGE_LOOP('',(#167));
#146=EDGE_LOOP('',(#168));
#147=EDGE_LOOP('',(#169));
#148=ORIENTED_EDGE('',*,*,#170,.T.);
#149=ORIENTED_EDGE('',*,*,#170,.F.);
#150=ORIENTED_EDGE('',*,*,#171,.T.);
#151=ORIENTED_EDGE('',*,*,#171,.F.);
#152=ORIENTED_EDGE('',*,*,#172,.T.);
#153=ORIENTED_EDGE('',*,*,#172,.F.);
#154=ORIENTED_EDGE('',*,*,#173,.T.);
#155=ORIENTED_EDGE('',*,*,#173,.F.);
#156=ORIENTED_EDGE('',*,*,#174,.T.);
#157=ORIENTED_EDGE('',*,*,#174,.F.);
#158=ORIENTED_EDGE('',*,*,#175,.T.);
#159=ORIENTED_EDGE('',*,*,#175,.F.);
#160=ORIENTED_EDGE('',*,*,#176,.T.);
#161=ORIENTED_EDGE('',*,*,#176,.F.);
#162=ORIENTED_EDGE('',*,*,#177,.T.);
#163=ORIENTED_EDGE('',*,*,#177,.F.);
#164=ORIENTED_EDGE('',*,*,#178,.T.);
#165=ORIENTED_EDGE('',*,*,#178,.F.);
#166=ORIENTED_EDGE('',*,*,#179,.T.);
#167=ORIENTED_EDGE('',*,*,#179,.F.);
#168=ORIENTED_EDGE('',*,*,#180,.T.);
#169=ORIENTED_EDGE('',*,*,#180,.F.);
#170=EDGE_CURVE('',#212,#212,#181,.T.);
#171=EDGE_CURVE('',#213,#213,#182,.T.);
#172=EDGE_CURVE('',#214,#214,#183,.T.);
#173=EDGE_CURVE('',#215,#215,#184,.T.);
#174=EDGE_CURVE('',#216,#216,#185,.T.);
#175=EDGE_CURVE('',#217,#217,#186,.T.);
#176=EDGE_CURVE('',#218,#218,#187,.T.);
#177=EDGE_CURVE('',#219,#219,#188,.T.);
#178=EDGE_CURVE('',#220,#220,#189,.T.);
#179=EDGE_CURVE('',#221,#221,#190,.T.);
#180=EDGE_CURVE('',#222,#222,#191,.T.);
#181=CIRCLE('',#224,2.49999999999999);
#182=CIRCLE('',#226,2.49999999999999);
#183=CIRCLE('',#228,2.99999999999999);
#184=CIRCLE('',#230,8.99999999999999);
#185=CIRCLE('',#232,11.);
#186=CIRCLE('',#234,11.);
#187=CIRCLE('',#236,14.);
#188=CIRCLE('',#238,24.);
#189=CIRCLE('',#240,25.);
#190=CIRCLE('',#242,25.);
#191=CIRCLE('',#244,24.);
#192=FACE_BOUND('',#210,.T.);
#193=FACE_BOUND('',#127,.T.);
#194=FACE_BOUND('',#128,.T.);
#195=FACE_BOUND('',#129,.T.);
#196=FACE_BOUND('',#131,.T.);
#197=FACE_BOUND('',#133,.T.);
#198=FACE_BOUND('',#134,.T.);
#199=FACE_BOUND('',#135,.T.);
#200=FACE_BOUND('',#136,.T.);
#201=FACE_BOUND('',#137,.T.);
#202=FACE_BOUND('',#138,.T.);
#203=FACE_BOUND('',#139,.T.);
#204=FACE_BOUND('',#141,.T.);
#205=FACE_BOUND('',#142,.T.);
#206=FACE_BOUND('',#143,.T.);
#207=FACE_BOUND('',#144,.T.);
#208=FACE_BOUND('',#145,.T.);
#209=FACE_BOUND('',#146,.T.);
#210=VERTEX_LOOP('',#211);
#211=VERTEX_POINT('',#296);
#212=VERTEX_POINT('',#298);
#213=VERTEX_POINT('',#301);
#214=VERTEX_POINT('',#304);
#215=VERTEX_POINT('',#307);
#216=VERTEX_POINT('',#310);
#217=VERTEX_POINT('',#313);
#218=VERTEX_POINT('',#316);
#219=VERTEX_POINT('',#319);
#220=VERTEX_POINT('',#322);
#221=VERTEX_POINT('',#325);
#222=VERTEX_POINT('',#328);
#223=AXIS2_PLACEMENT_3D('',#295,#247,#248);
#224=AXIS2_PLACEMENT_3D('',#297,#249,#250);
#225=AXIS2_PLACEMENT_3D('',#299,#251,#252);
#226=AXIS2_PLACEMENT_3D('',#300,#253,#254);
#227=AXIS2_PLACEMENT_3D('',#302,#255,#256);
#228=AXIS2_PLACEMENT_3D('',#303,#257,#258);
#229=AXIS2_PLACEMENT_3D('',#305,#259,#260);
#230=AXIS2_PLACEMENT_3D('',#306,#261,#262);
#231=AXIS2_PLACEMENT_3D('',#308,#263,#264);
#232=AXIS2_PLACEMENT_3D('',#309,#265,#266);
#233=AXIS2_PLACEMENT_3D('',#311,#267,#268);
#234=AXIS2_PLACEMENT_3D('',#312,#269,#270);
#235=AXIS2_PLACEMENT_3D('',#314,#271,#272);
#236=AXIS2_PLACEMENT_3D('',#315,#273,#274);
#237=AXIS2_PLACEMENT_3D('',#317,#275,#276);
#238=AXIS2_PLACEMENT_3D('',#318,#277,#278);
#239=AXIS2_PLACEMENT_3D('',#320,#279,#280);
#240=AXIS2_PLACEMENT_3D('',#321,#281,#282);
#241=AXIS2_PLACEMENT_3D('',#323,#283,#284);
#242=AXIS2_PLACEMENT_3D('',#324,#285,#286);
#243=AXIS2_PLACEMENT_3D('',#326,#287,#288);
#244=AXIS2_PLACEMENT_3D('',#327,#289,#290);
#245=AXIS2_PLACEMENT_3D('',#329,#291,#292);
#246=AXIS2_PLACEMENT_3D('',#330,#293,#294);
#247=DIRECTION('',(0.,0.,1.));
#248=DIRECTION('',(1.,0.,0.));
#249=DIRECTION('',(1.,0.,0.));
#250=DIRECTION('',(0.,0.,-1.));
#251=DIRECTION('',(1.,0.,0.));
#252=DIRECTION('',(-4.80047890912852E-017,0.,-1.));
#253=DIRECTION('',(1.,0.,0.));
#254=DIRECTION('',(0.,0.,-1.));
#255=DIRECTION('',(1.,0.,0.));
#256=DIRECTION('',(0.,0.,-1.));
#257=DIRECTION('',(1.,0.,0.));
#258=DIRECTION('',(0.,0.,-1.));
#259=DIRECTION('',(1.,0.,0.));
#260=DIRECTION('',(-5.53451158836193E-017,0.,-1.));
#261=DIRECTION('',(1.,0.,0.));
#262=DIRECTION('',(0.,0.,-1.));
#263=DIRECTION('',(-1.,0.,0.));
#264=DIRECTION('',(0.,0.,1.));
#265=DIRECTION('',(1.,0.,0.));
#266=DIRECTION('',(0.,0.,-1.));
#267=DIRECTION('',(1.,0.,0.));
#268=DIRECTION('',(0.,0.,-1.));
#269=DIRECTION('',(1.,0.,0.));
#270=DIRECTION('',(0.,0.,-1.));
#271=DIRECTION('',(1.,0.,0.));
#272=DIRECTION('',(0.,0.,-1.));
#273=DIRECTION('',(1.,0.,0.));
#274=DIRECTION('',(0.,0.,-1.));
#275=DIRECTION('',(1.,0.,0.));
#276=DIRECTION('',(0.,0.,-1.));
#277=DIRECTION('',(1.,0.,0.));
#278=DIRECTION('',(0.,0.,-1.));
#279=DIRECTION('',(-1.,0.,0.));
#280=DIRECTION('',(0.,0.,1.));
#281=DIRECTION('',(1.,0.,0.));
#282=DIRECTION('',(0.,0.,-1.));
#283=DIRECTION('',(1.,0.,0.));
#284=DIRECTION('',(0.,0.,-1.));
#285=DIRECTION('',(1.,0.,0.));
#286=DIRECTION('',(0.,0.,-1.));
#287=DIRECTION('',(1.,0.,0.));
#288=DIRECTION('',(0.,0.,-1.));
#289=DIRECTION('',(1.,0.,0.));
#290=DIRECTION('',(0.,0.,-1.));
#291=DIRECTION('',(1.,0.,0.));
#292=DIRECTION('',(0.,0.,-1.));
#293=DIRECTION('',(1.,0.,0.));
#294=DIRECTION('',(0.,0.,-1.));
#295=CARTESIAN_POINT('',(0.,0.,0.));
#296=CARTESIAN_POINT('',(168.556624,70.,0.));
#297=CARTESIAN_POINT('',(170.,70.,0.));
#298=CARTESIAN_POINT('',(170.,70.,-2.49999999999999));
#299=CARTESIAN_POINT('',(170.,70.,0.));
#300=CARTESIAN_POINT('',(179.5,70.,0.));
#301=CARTESIAN_POINT('',(179.5,70.,-2.49999999999999));
#302=CARTESIAN_POINT('',(185.,70.,0.));
#303=CARTESIAN_POINT('',(180.,70.,0.));
#304=CARTESIAN_POINT('',(180.,70.,-2.99999999999999));
#305=CARTESIAN_POINT('',(180.,70.,0.));
#306=CARTESIAN_POINT('',(180.,70.,0.));
#307=CARTESIAN_POINT('',(180.,70.,-8.99999999999999));
#308=CARTESIAN_POINT('',(180.,79.,0.));
#309=CARTESIAN_POINT('',(178.,70.,0.));
#310=CARTESIAN_POINT('',(178.,70.,-11.));
#311=CARTESIAN_POINT('',(178.,70.,0.));
#312=CARTESIAN_POINT('',(168.,70.,0.));
#313=CARTESIAN_POINT('',(168.,70.,-11.));
#314=CARTESIAN_POINT('',(185.,70.,0.));
#315=CARTESIAN_POINT('',(165.,70.,0.));
#316=CARTESIAN_POINT('',(165.,70.,-14.));
#317=CARTESIAN_POINT('',(168.,70.,0.));
#318=CARTESIAN_POINT('',(165.,70.,0.));
#319=CARTESIAN_POINT('',(165.,70.,-24.));
#320=CARTESIAN_POINT('',(165.,94.,0.));
#321=CARTESIAN_POINT('',(164.,70.,0.));
#322=CARTESIAN_POINT('',(164.,70.,-25.));
#323=CARTESIAN_POINT('',(164.,70.,0.));
#324=CARTESIAN_POINT('',(153.,70.,0.));
#325=CARTESIAN_POINT('',(153.,70.,-25.));
#326=CARTESIAN_POINT('',(185.,70.,0.));
#327=CARTESIAN_POINT('',(152.,70.,0.));
#328=CARTESIAN_POINT('',(152.,70.,-24.));
#329=CARTESIAN_POINT('',(153.,70.,0.));
#330=CARTESIAN_POINT('',(152.,70.,0.));
#331=(
GEOMETRIC_REPRESENTATION_CONTEXT(3)
GLOBAL_UNCERTAINTY_ASSIGNED_CONTEXT((#332))
GLOBAL_UNIT_ASSIGNED_CONTEXT((#338,#334,#333))
REPRESENTATION_CONTEXT('SAHN50C','TOP_LEVEL_ASSEMBLY_PART')
);
#332=UNCERTAINTY_MEASURE_WITH_UNIT(LENGTH_MEASURE(2.E-005),#338,
'DISTANCE_ACCURACY_VALUE','Maximum Tolerance applied to model');
#333=(
NAMED_UNIT(*)
SI_UNIT($,.STERADIAN.)
SOLID_ANGLE_UNIT()
);
#334=(
CONVERSION_BASED_UNIT('DEGREE',#336)
NAMED_UNIT(#335)
PLANE_ANGLE_UNIT()
);
#335=DIMENSIONAL_EXPONENTS(0.,0.,0.,0.,0.,0.,0.);
#336=PLANE_ANGLE_MEASURE_WITH_UNIT(PLANE_ANGLE_MEASURE(0.0174532925),#337);
#337=(
NAMED_UNIT(*)
PLANE_ANGLE_UNIT()
SI_UNIT($,.RADIAN.)
);
#338=(
LENGTH_UNIT()
NAMED_UNIT(*)
SI_UNIT(.MILLI.,.METRE.)
);
ENDSEC;
END-ISO-10303-21;
